Tablature:Hero:Stgrunu

From Weezerpedia
Jump to: navigation, search
Tablaturetemplateimage.png This is a Tablature page, which contains the written musical notation of a song.

The work on these pages are not endorsed or official in any way, as they were created by a Weezerpedia user for use among other fans.


Tab information
Song: "Hero"
Artist: Weezer
Type: Chords
Tuning: Standard
Created by User:Stgrunu
[intro]
D - A - E - Bm
D - G - A - D

[intro riff]
(timing is not right, these are just the notes)
e|---------------------------------------------------------|
B|---------------------------------------------------------|
G|-7---11--9---9---12--11----11--14---12---11--9---11--7---|
D|---------------------------------------------------------|
A|-5---9---7---7---10---9----9---12---10---9---7---9---5---|
E|---------------------------------------------------------|


[riff A]
e|---------------------------|
B|---------------------------|
G|---------------------------|
D|---------------------------|
A|--2--0--4--0--5--0--7--0---|
E|---------------------------|


[riff B]
e|--------------------|
B|--------------------|
G|--19--18--16--14----|
D|--------------------|
A|--17--16--14--12----|
E|--------------------|


[riff C]
e|-----------------------------------------------------|
B|-----------------------------------------------------|
G|-----------------------------------------------------|
D|-----------------------------------------------------|
A|--2-4-5-(x5)--4-5-7-(x5)--5-7-9-(x5)--7-9-10-(x5)----| (last two are slightly faster)
E|-----------------------------------------------------|

D
When I was a kid I thought I'd save the world
A/C#
Runnin' 'round and chasin' all the criminals
Bm
Swingin' on a web, flyin' in the sky
A [riff A]
Shootin' lasers from my eyes
D
But now I know it never was my destiny

A/C#
It's not my place in life, not who I'm meant to be
Bm
And I don't need the glory, I don't need the fame
A [riff A]
And I don't wanna wear this cape

Bm
'Cause on the inside
A/C#
I know it won't last
D
On the inside
E
I'm an outcast

D
Well, everybody needs a hero
F#m
But I'm not everybody else
Bm
I walk alone
Yeah, I walk alone
A/C#           D
Yeah, I walk alone, yeah

D [second guitar does riff B]
Y'know I tried to be your hero
F#m
But I was lying to myself
Bm
I walk alone
Yeah, I walk alone
A/C#           D
Yeah, I walk alone, yeah

D
They build you up and then they gonna tear you down
A/C#
They love you then they hate you if you wear a crown
Bm
It's not that I don't love to solve a mystery,
A [riff A]
But life is hard enough with one identity

D
If silence is the voice of the new generation
A/C#
Then I could live up to all of your expectations
Bm
I'd hammer down hard like I'm Iron Fist
A [riff A]
Then disappear like I don't exist

Bm [riff C]
And on the inside
A/C#
I know it won't last
D
On the inside
E
I'm an outcast

D [riff B through the entire chorus, ends on a D octave before repeat]
Well, everybody needs a hero
F#m
But I'm not everybody else
Bm
I walk alone
Yeah, I walk alone
A/C#           D
Yeah, I walk alone, yeah

D
Y'know I tried to be your hero
F#m
But I was lying to myself
Bm
I walk alone
Yeah, I walk alone
A/C#           D
Yeah, I walk alone, yeah

[bridge]
D - A - E - Bm
D - G - A - D

[riff A the first time]

D - A - E - Bm
D - G - A - D

[solo]

D
Well, everybody needs a hero
F#m
But I'm not everybody else
Bm
I walk alone
Yeah, I walk alone
A/C#           D
Yeah, I walk alone, yeah

D
Y'know I tried to be your hero
F#m
But I was lying to myself
Bm
I walk alone
Yeah, I walk alone
A/C#           D
Yeah, I walk alone, yeah

D [riff B until the end, same as last chorus]
Well, everybody needs a hero
F#m
But I'm not everybody else
Bm
I walk alone
Yeah, I walk alone
A/C#           D
Yeah, I walk alone, yeah

D
Y'know I tried to be your hero
F#m
But I was lying to myself
Bm
I walk alone
Yeah, I walk alone
A/C#           D
Yeah, I walk alone, yeah

See also