Tablature:Oh God I'm Hungry

From Weezerpedia
Jump to: navigation, search
Tablaturetemplateimage.png This is a Tablature page, which contains the written musical portion of a song. Pages in the Tablature line should be kept mostly separate from the main pages, as they are for different purposes.

The work on these pages are not endorsed or official in any way, as they were created by a Weezerpedia user for use among other fans.


Created by deckra

Song: Oh God I'm Hungry

Artist: Rivers Cuomo

Album: 10 Songs from the Valley, Alone III: The Pinkerton Years 1994-1997, Alone IV: The Blue-Pinkerton Years

Type: Tab

Tuning: Standard

[riff]
 
e|-------------------------------------|
B|-------------------------------------|
G|-------------------------------------|
D|-4-4-x-4---------4-4-x-4-------------|
A|-2-2-x-2-5-5-x-5-2-2-x-2-4/5-4/5-4-4-|
E|---------3-3-x-3---------2/3-2/3-2-2-| (x4)
 
[riff (alternative)]
 
e|-------------------------------------|
B|-------------------------------------|
G|-------------------------------------|
D|-4-4-x-4---------4-4-x-4-------------|
A|-2-2-x-2-5-5-x-5-2-2-x-2-------------|
E|---------3-3-x-3---------2h3-2h3-2-2-| (x4)
 
just be sure to palm mute the dead notes

Legend

x = dead note
/ = slide up
h = hammer-on

See Also