Tablature:Touch My Fuzz (Bass)

From Weezerpedia
Jump to: navigation, search
Tablaturetemplateimage.png This is a Tablature page, which contains the written musical portion of a song. Pages in the Tablature line should be kept mostly separate from the main pages, as they are for different purposes.

The work on these pages are not endorsed or official in any way, as they were created by a Weezerpedia user for use among other fans.


Created by deckra

Song: "Touch My Fuzz"

Artist: Chopper One

Album: Now Playing

Type: Bass

Tuning: Full-step down

i'm not really sure why it's a full-step down, but that's how it's played in the music video.

[intro/chorus]

F|----------------|
C|----------------|
G|----------------|
D|-1>-5>-6>-3-6-5-| (x3)

F|----------|
C|----------|
G|----------|
D|-1>-5>-6>-|

F|-----------------------|
C|-----------------------|
G|-------8---------------|
D|-6>-8>---8-10>---6>-8>-|


[verse] (0:22)

F|----------|
C|----------|
G|----------|
D|-1>-5>-6>-| (x4)


[chorus] (0:40)

F|-----------------------|
C|-----------------------|
G|-------8---------------|
D|-6>-8>---8-10>---6>-8>-|


[verse] (0:47)

F|----------|
C|----------|
G|----------|
D|-1>-5>-6>-| (x4)


[chorus] (1:05)

F|-----------------------|
C|-----------------------|
G|-------8---------------|
D|-6>-8>---8-10>---6>-8>-|


[bridge] (1:11)

F|--------------------------------|
C|--------------------------------|
G|-----/-\------/-\-----/-\-------|
D|-1-1------5-5-----6-6-----3-6-5-| (x2)
just slide up and back down on the G, doesn't matter which notes


[solo] (1:20)

F|--------------------------------|
C|--------------------------------|
G|--------------------------------|
D|-1-1------5-5-----6-6-----3-6-5-| (x2)


[chorus] (1:30)

F|----------------|
C|----------------|
G|----------------|
D|-1>-5>-6>-3-6-5-| (x3)

F|----------|
C|----------|
G|----------|
D|-1>-5>-6>-|

F|-----------------------|
C|-----------------------|
G|-------8---------------|
D|-6>-8>---8-10>---6>-8~-|


[outro/chorus] (1:53)

F|----------------|
C|----------------|
G|----------------|
D|-1>-5>-6>-3-6-5-| (x4)

F|-----------------------|
C|-----------------------|
G|-------8---------------|
D|-6>-8>---8-10>---6>-8~-|

Legend

> = strum to rhythm
/ = slide up
\ = slide down
~ = let ring

See Also